Cours de guitare Cours de guitare | Nouveautés | Top 100 | Tous les accords | Blog
# a b c d e f g h i j k l m n o p q r s t u v w x y z demander une tab

Avec le temps tab


Tablature guitare de la chanson « Avec le temps » de Léo Férré.

         
--3--------3--------3--------3--------||---3-------3--------1--------1--------|
-----1--------1--------1--------1-----||------1--------1--------1--------1----|
--------2--------2--------2--------2--||*--------2--------2--------2--------2-|
--------------------------------------||*-------------------------------------|
--0-----------------------------------||---0----------------------------------|
--------------------------------------||--------------------------------------|
                                                                      
--1--------1--------0--------0--------|--0--------0--------------------------|
-----0--------0--------0--------0-----|--------------------3--------3--------|
--------0--------0--------0--------0--|-----2--------2--------2--------2-----|
--------------------------------------|--------3--------3--------3--------3--|
--------------------------------------|--------------------------------------|
--3-----------------------------------|--1-----------------------------------|
                                                                 
-----------------------------|-----------0--------5--------8---------|
--1--------1--------0--------|--1-----------1--------5--------10-----|
-----1--------1--------1-----|-----2-----------2--------5---------9--|
--------2--------2--------2--|--------2------------------------------|
-----------------------------|--0------------------------------------|
--0--------------------------|---------------------------------------|
                                                                       
--7--------7--------5--------5--------|--5--------5--------3--------3--------|
-----5--------5--------5--------5-----|-----3--------3--------3--------3-----|
--------5--------5--------5--------5--|--------4--------4--------4--------4--|
--------------------------------------|--------------------------------------|
--0-----------------------------------|--------------------------------------|
--------------------------------------|--3-----------------------------------|
                                                          
--3--------3--------1--------1--------|--1--------1--------0--------|
-----1--------1--------1--------1-----|-----0--------0--------0-----|
--------2--------2--------2--------2--|--------0--------0--------0--|
--------------------------------------|-----------------------------|
--------------------------------------|-----------------------------|
--1-----------------------------------|--0--------------------------|
                                                                    
--0--------0--------------------------|--------------------------------------|
--------------------3--------3--------|--3--------3--------1--------1--------|
-----2--------2--------2--------2-----|-----0--------0--------0--------0-----|
--------3--------3--------3--------3--|--------2--------2--------2--------2--|
--5-----------------------------------|--3-----------------------------------|
--------------------------------------|--------------------------------------|
                                                                              2x
--------------------------------------|--------------------0------------------||
--1--------1--------0--------0--------|-----------1-----------1-----1---------||
-----1--------1--------1--------1-----|--------2-----2-----------2-----2-----*||
--------2--------2--------2--------2--|-----2-----------2-----------------2--*||
--------------------------------------|--0------------------------------------||
--0-----------------------------------|---------------------------------------||

-----------------------------|--------------------0--------|--5---------------||
--1--------1--------0--------|-----------1-----------1-----|--5---------------||
-----1--------1-----1--------|--------2-----2-----------2--|--5---------------||
--------2--------2--2--------|-----2-----------2-----------|------------------||
-----------------------------|--0--------------------------|--0---------------||
--0--------------------------|-----------------------------|------------------||


Imprimer la tab Imprimer la tab

Un commentaire »

  • Jean-René :

    Super ! Mais pourquoi ne pas avoir mis les paroles avec ?

Commentez la partition de Avec le temps