Cours de guitare Cours de guitare | Nouveautés | Top 100 | Tous les accords | Blog
# a b c d e f g h i j k l m n o p q r s t u v w x y z demander une tab

The fear tab


Tablature guitare de la chanson « The fear » de Ben Howard.

CAPO 4

Riff 1
E|------------------------------------------------------------------------------|
B|------------------------------------------------------------------------------|
G|--4-2-4-2--2p0--4-2-4-2-2p0-----4-2-4-2--2p0--4-2-4-2-2p0--------------| X 3--|
D|-----------------------------------------------------------------0h2----------|
A|-0-0-0-0-0-----0-0-0-0-0--------------------------------------0h2-------------|
E|-------------------------------3-3-3-3-3-----3-3-3-3-3-----0h2----------------|

Riff 2 
E|--------------------------------------------------------|
B|--------------------------------------------------------|
G|--------------------------------------------------------|
D|-2-2-2-0-2-0-----------0--------------------------------|
A|---------------2-0-0-2---2-0----------------------------|
E|-----------------------------3--------------------------|

INTRO

RIFF 1

E|------------------------------------------------------------------------------|
B|------------------------------------------------------------------------------|
G|--4-2-4-2--2p0--4-2-4-2-2p0-----4-2-4-2--2p0--4-2-4-2-2p0--------------| X 3--|
D|-----------------------------------------------------------------0h2----------|
A|-0-0-0-0-0-----0-0-0-0-0--------------------------------------0h2-------------|
E|-------------------------------3-3-3-3-3-----3-3-3-3-3-----0h2----------------|

A                                       G
Mama, cold hearted child, tell me how you feel
       A                                   G
Just a blade in the grass, spoke unto the wheel
A                                                G
Mama, cold hearted child, tell me where it's all gone
A                                                  G
The luster of your bones, those arms that held you strong

REFRAIN
C9               		       Em        D        C9
I been worryin', I been worryin' that my time is a little unclear
                                          Em         D            C9
I been worryin', I been worryin' that I'm losing the one's I hold dear
                                         Em  (pick)   D                         RIFF 2
I been worryin', I been worryin' that we all live our lives in the confines of fear

A                                         G
My my, cold hearted child, tell me how you feel
A                                                  G
Just a grain in the morning air, dark shadow on the hill
A                                              G
My my, cold hearted child, tell me where it all fall's
A                                              G
Oh this apathy you feel will make a fool of us all

REFRAIN
C9                    		       Em        D        C9
I been worryin', I been worryin' that my time is a little unclear
                                          Em         D            C9
I been worryin', I been worryin' that I'm losing the one's I hold dear
                                         Em  (pick)   D                         RIFF 2
I been worryin', I been worryin' that we all live our lives in the confines of fear

PONT (RIFF 2)
E|--------------------------------------------------------|
B|--------------------------------------------------------|
G|--------------------------------------------------------|
D|-2-2-2-0-2-0-----------0--------------------------------|
A|---------------2-0-0-2---2-0----------------------------|
E|-----------------------------3--------------------------|
                       
Oh I will become what I deserve (x4)
I been worryin', I been worryin', 
I will become what I deserve    
I been worryin' that my time is a little unclear
I will become what I deserve

REFRAIN
C9      		       Em        D        C9
I been worryin', I been worryin' that my time is a little unclear
                                          Em         D            C9
I been worryin', I been worryin' that I'm losing the one's I hold dear
                                              Em         D                      
I been worryin', I been worryin' that we all live our lives in the confines of fear

RIFF 2


Imprimer la tab Imprimer la tab

Commentez la partition de The fear