Cours de guitare Cours de guitare | Nouveautés | Top 100 | Tous les accords | Blog
# a b c d e f g h i j k l m n o p q r s t u v w x y z demander une tab

The promise you made tab


Accords guitare de la chanson « The promise you made » de Cock Robin.

                                               F  C
If I laid down my love to come to your defense
                                                F  C
Would you worry for me with a pain in your chest
G                    F                  Am 
Could I rely on your faith to be strong
G                         F             Am
To pick me back up and to push me along
G
Tell me
F         G           Em      F
You'll be there in my hour of need
F         G        Em
You won't turn me away
F       G          Em     F
Help me out of the life I lead

Remember the promise you made
Remember the promise you made


e|-------------15------------------------------------------------------------|
B|----------13--------------13-12-----------13-15-13-------------------------|
G|-14-14-14--------12-12-12--------10-10-10----------------------------------|
D|---------------------------------------------------------------------------|
A|---------------------------------------------------------------------------|
E|---------------------------------------------------------------------------|

e|-------------15-------------------------------15---------------------------|
B|----------13-------------13-12------------13-----17------------------------|
G|-14-14-14-------12-12-12---------10-10-10----------------------------------|
D|---------------------------------------------------------------------------|
A|---------------------------------------------------------------------------|
E|---------------------------------------------------------------------------|


Am                          C
If I gave you my soul for a piece of your mind
Am                                 C
Would you carry me with you to the far edge of time
G                           F               Am
Could you understand if you found me untrue
G                         F             Am       
Would we become one, or divide into two
G
Please tell me
F         G           Em      F
You'll be there in my hour of need
F         G        Em
You won't turn me away
F       G          Em     F
Help me out of the life I lead

Remember the promise you made
Remember the promise you made


e|--------------15\-17-15-----------------------17-15------------------------|
B|----------13------------17-13-----------13---------------------------------|
G|-14-14-14----------------------14-14-14------------------------------------|
D|---------------------------------------------------------------------------|
A|---------------------------------------------------------------------------|
E|---------------------------------------------------------------------------|

e|-------------15\-17-15--------------------17-15----------------------------|
B|----------13-----------17-13-----------13----------------------------------|
G|-14-14-14---------------------14-14-14-------------------------------------|
D|---------------------------------------------------------------------------|
A|---------------------------------------------------------------------------|
E|---------------------------------------------------------------------------|


G                    F                  Am
Could I rely on your faith to be strong
   G                      F             Am
To pick me back up and to push me along
G
Please tell me
F         G           Em      F
You'll be there in my hour of need
F         G        Em
You won't turn me away
F       G          Em     F
Help me out of the life I lead

Remember the promise you made
Remember the promise you made


Imprimer la tab Imprimer la tab

Commentez la partition de The promise you made