Cours de guitare Nouveautés | Top 100 | Tous les accords | Les contributeurs | le Blog
# a b c d e f g h i j k l m n o p q r s t u v w x y z +ajouter

Apache

Imprimer la tab Imprimer la tab

Tablature gratuite de la chanson “Apache” des Shadows.

Clip vidéo


Voir tous les clips The Shadows

Tablature, accords, paroles:

Accords utilisés:

Am 02210
D  x0232

G  320033

F  133211

C  x32010

C7 x32310


   Am               D
e----------------------------5--3---
B--------1--3^------------1---------
G-----2----------------2------------
D----------------------------------- x2
A-----------------------------------
E-----------------------------------

  Am            D         Am
e--------------------------
B--------------------------
G------2-----2-------------
D---2-----2-----4--2--0--2-  Rejouer
A--------------------------
E--------------------------

  D           G        D
e------------------------
B----2-----3-------------
G-2-----2-----4--2--0--2-
D------------------------
A------------------------
E------------------------

  Am            D         Am
e------------------------
B------------------------
G-----2-----2------------
D--2-----2-----4--2--2---
A------------------------
E------------------------
  F                           Am
e----------------------------------
B----------------------------------
G---------------------------------- x2
D---3333---3333---3333---3333------
A-3------3------3------3------2-0*-
E----------------------------------


  F            G        Am
e-----------------------0-----------
B-------1--0---0--1--3-----3--1-----
G----2----------------------------2-
D-3---------------------------------
A-----------------------------------
E-----------------------------------
  F            G        C
e---------------------------------
B-------1--0---0--1--3------------
G-----2------------------0--------
D-3-------------------------------
A---------------------------------
E---------------------------------
  C7
e-----3-------6---
B-2/5---5-5/8---8-
G-----------------
D-----------------
A-----------------
E-----------------
  F            G        Am
e-----------------------0-----------
B-------1--0---0--1--3-----3--1-----
G----2----------------------------2-
D-3---------------------------------
A-----------------------------------
E-----------------------------------
  F                           Am
e----------------------------------
B----------------------------------
G---------------------------------- x2
D---3333---3333---3333---3333------
A-3------3------3------3------2-0*-
E----------------------------------


  Am              D            Am=20
e-----------------------------------
B-----------------------------------
G----------------------------------- x2
D---77777-----7----------------7----
A-7-------7-7---7-99999--7--5-----7-
E-----------------------------------
  D               G            D
e-----------------------------------
B-----------------------------------
G---77777-----7----------------7----
D-7-------7-7---7-99999--7--5-----7-
A-----------------------------------
E-----------------------------------
  Am              D            Am=20
e-----------------------------------
B-----------------------------------
G----------------------------------- 
D---77777-----7----------7--5--7----
A-7-------7-7---7-99999-----------7-
E-----------------------------------
  Am
e-----0---
B----1----
G---2-----
D--2------
A-0-------
E---------

  F            G        Am
e-----------------------0-----------
B-------1--0---0--1--3-----3--1-----
G----2----------------------------2-
D-3---------------------------------
A-----------------------------------
E-----------------------------------
  F            G        C
e------------------------------------------
B-------1--0---0--1--3---------------------
G-----2------------------0----0000-1-0-1-0-
D-3----------------------------------------
A------------------------------------------
E------------------------------------------
  F            G        Am
e-----------------------0-----------
B-------1--0---0--1--3-----3--1-----
G----2----------------------------2-
D-3---------------------------------
A-----------------------------------
E-----------------------------------
  F                           Am
e----------------------------------
B----------------------------------
G---------------------------------- 
D---3333---3333---3333---3333------
A-3------3------3------3------2-0--
E----------------------------------
  F                           Am
e-------------------------------
B-------------------------------
G-------------------------------
D----------------------333333-2-
A--------000000-333333----------
E-111111------------------------

   Am               D
e----------------------------5--3---
B--------1--3^------------1---------
G-----2----------------2------------
D----------------------------------- x3
A-----------------------------------
E-----------------------------------


   Am               D
e------------------------------------
B--------1--3^------------1-----1----
G-----2----------------2-----2-----2-
D------------------------------------=20
A------------------------------------
E------------------------------------

   Am               D
e----------------------5--3--0----------------
B--------1--3^------------------3--1--0-------
G-----2----------------------------------0--2-
D---------------------------------------------
A---------------------------------------------
E---------------------------------------------


6 commentaires »

  • Quentin :

    super ca faisait un petit ,bout de temps que je la cherchais
    merci

  • poupou :

    ben moi j’ai l’impression qu’il y a plein de fautes.. C’est une idée peut être?? Comme si ça sonnait faux par moment? Mais je peux me tromper bien sur!

  • Quentin :

    non exact il y a quelques fautes comme dans le passage n°5 :
    le 2 n’est pas sur la corde la mais sur la corde ré.

  • Guigui :

    Qui aime bien cette chanson

  • guitariste02 :

    merci pr la tablature j adore cette musique

  • alnloup :

    Bonjour les passionné……pour POUPOU, amicalement, Nine ! non, il n’y a aucune faute de tablature dans le morceau présenté….c’est bien les accords présentés et mis dans cet ordre au démarrage du morceau….
    Pour avoir quelque chose de non copié-collé du morceau, faire une personnalisation si on veut,le présenter en soirée ou aux copains-copines, jouez deux guitaristes rythmique, un en accords naturels tel que la tablature présentée, l’autre en contre voix, deux octaves au dessus , la maitresse devant rester bien sur celle qui fait la partie nature….C’est juste un avis sympa d’un vieux tripoteur de grattes des année en question ….en plein ded

Commentez la tablature