Cours de guitare Cours de guitare | Nouveautés | Top 100 | Tous les accords | Blog
# a b c d e f g h i j k l m n o p q r s t u v w x y z demander une tab

Toute la vie tab


Tablature guitare de la chanson « Toute la vie » des Enfoirés.

INTRO:
-----------------------------------
------3-----3-1-1------3-----3-----
----2-----2----------2-----2-------
--0-----0----------0-----0-----0---
-----------------------------------
-----------------------------------

COUPLETS:
-----------------------------------|-------------------------------
------3-------1-------1---------3--|------3-------1-------1--------
----2-------0---0---2---------4----|----2-------0---0---2----------
--0-----0-2-------3-----3-3/5------|--0-----0-2-------3-----3-5----
-----------------------------------|-------------------------------
-----------------------------------|-------------------------------

COUPLET 1:
Des portes closes et des nuages sombres
C'est notre héritage, notre horizon
Le futur et le passé nous encombrent
Avez vous compris la question ?  NON

COUPLET 2:
Vous avez tout, l'amour et la lumière
On s'est battus, on n'a rien volé
Nous n'avons que nos dégoûts, nos colères

A
Mais vous avez
A
Mais vous avez
A
Oui, vous avez

	 Dm    Bb	   F		C
Toute la vie,      c'est une chance inouïe
	 Dm    Bb	     F	         	C
Toute la vie,      c'est des mots, ça veut rien dire
	 Dm    Bb	   	F		  C
Toute la vie,      tu sais le temps n'a pas de prix
    Dm   Bb	   	F        C
Utopie,        sans avenir
	 Dm    Bb	    F		    C
Toute la vie,       c'est à ton tour et vas-y
C
A ton tour et vas-y
Bb
A ton tour et vas-y
Dm
A ton tour, vas-y

COUPLET 3:
Vous aviez tout, paix liberté, plein emploi
Nous c'est chômage, violence, sida
Tout ce qu'on a il a fallu le gagner
A vous de jouer mais faudrait vous bouger

COUPLET 4:
Vous avez raté, dépensé, pollué
Je rêve ou tu es en train de fumer ?
Vous avez sali les idéologies

A
Mais vous avez
A
Mais vous avez
A
Oui, vous avez

	 Dm    Bb	   F		C
Toute la vie,      c'est une chance un défi
	 Dm    Bb	   F		      C
Toute la vie,      c'est bidon, ça veut rien dire
	 Dm    Bb	      F		        C
Toute la vie,      tu sais le temps n'a pas de prix
    Dm    Bb	        F	C
Utopie,        sans avenir

	Fm   C#		   G#		     Eb
Aujourd'hui,       j'envie tellement ta jeunesse
	Fm   C#		   G#		     Eb
Quel ennui, je l'échange contre ta caisse
	Fm   C#		   G#		     Eb
C'est la vie, la vie qui caresse et qui blesse
	Fm   C#		   G#		     Eb
C'est ta vie, vole et vas-y,
	    Fm
Vole et vas-y
Fm
A ton tour et vas-y
Fm
A ton tour et vas-y
Fm
A ton tour, vas-y

Paroles « Toute la vie » Les Enfoirés


Imprimer la tab Imprimer la tab

Commentez la partition de Toute la vie