Cours de guitare Cours de guitare | Nouveautés | Top 100 | Tous les accords | Blog
# a b c d e f g h i j k l m n o p q r s t u v w x y z demander une tab

Drama queen tab


Tablature guitare de la chanson “Drama Queen” de Vadel.

Capo 2


Intro :

E--------------------------------------------------------------------------
B----0------1----------1-----0----------0------1---------1-----------------
G------0------0----------0-----0----------0------0---------0---0-----------
D-----------------0--------2-------2----------------0--------2---2---------
A---------3---------0------------------------3--------0--------------------
E--0---------------------------------0-------------------------------------


Accompagnement du couplet

E--------------------------------------------------------------------------
B----0------1----------1-----0----------0------1---------1-----------------
G------0------0----------0-----0----------0------0---------0---0-0-0h2h0---
D-----------------0--------2-------2----------------0--------2-------------
A---------3---------0------------------------3--------0--------------------
E--0---------------------------------0-------------------------------------



E--------------------------------------------------------------------------
B----0------1----------1-----0----------0------1---------1-----------------
G------0------0----------0-----0----------0------0---------0---0-----------
D-----------------0--------2-------2----------------0--------2---2---------
A---------3---------0------------------------3--------0--------------------
E--0---------------------------------0-------------------------------------


Couplet :


        Em          C             Am        Em
    Ma Drama Queen je ne sais plus quoi te dire,
       Em        C        Am      Em
    A chaque parole les choses empirent.
       Em        C          Am     Em               
    Toutes ces balles quand tu me tires dessus,
    Em        C        Am       Em
       Je n'peux plus en guérir.
 


Refrain


Em           C         D        G              Em
    So put your heads down, we did it before.
  C        D                  G          Em
    Heads down, back to the status quo,
  C        D         G                Em
    Heads down, you wouldn't believe
        C      D           Em
    It takes as long as a heartbeat
                 C        D          Em
    And it would break as fast as a heartbeat



Couplet :

     Em        C    Am      Em
    Ces moments où tu me laisses,
    Em     C        Am      Em
    Je me fond dans ma detresse.
    Em          C         Am     Em
    Je n'sais plus c'qui t'intéresse,
    Em         C        Am      Em
    Et pendant ce temps tu me blesses.



 
Refrain


Em           C         D        G              Em
    So put your heads down, we did it before.
  C        D                  G          Em
    Heads down, back to the status quo,
  C        D         G                Em
    Heads down, you wouldn't believe
        C      D           Em
    It takes as long as a heartbeat
                 C        D          Em
    And it would break as fast as a heartbeat


Pont :

    Em            C
    Encore tu reviens,
              G         Am
    Pour me tendre la main.

    Em, C, G, Am

    Em             C
    Et quand tu repars,
             G              Am
    Je suis seule, dans le noir.

    Em, C, G, Am



C  D  G     Em           C  D  G
        Je ne sais plus 
        Em            C  D  G
    oh quoi te dire
            Em           C
        Je ne peux plus 
  D   G     Em  
    me mentir.
 


Refrain


Em           C         D        G              Em
    So put your heads down, we did it before.
  C        D                  G          Em
    Heads down, back to the status quo,
  C        D         G                Em
    Heads down, you wouldn't believe
        C      D           Em
    It takes as long as a heartbeat
                 C        D          Em
    And it would break as fast as a heartbeat



Couplet :


        Em          C             Am        Em
    Ma Drama Queen je ne sais plus quoi te dire,
       Em        C        Am      Em
    A chaque parole les choses empirent.
       Em        C          Am     Em               
    Toutes ces balles quand tu me tires dessus,
    Em        C        Am       Em
       Je n'peux plus en guérir.


Refrain


Imprimer la tab Imprimer la tab

Un commentaire »

  • poupou :

    Bonjour,

    Comment on joue le refrain? Arpège ou rythmique? L’un comme l’autre, serait-il possible d’avoir des infos complémentaires?
    Merci pour ce qui est déjà proposé, c’est super bien fait!

Commentez la partition de Drama queen