Cours de guitare Cours de guitare | Nouveautés | Top 100 | Tous les accords | Blog
# a b c d e f g h i j k l m n o p q r s t u v w x y z demander une tab

You are my sunshine tab


Tablature guitare de la chanson « You are my sunshine » de Johnny Cash.

INTRO:

E|----------------2--2--0--------------------------------------|
B|-----0--2--2h3-----------3--1h2----------0--2--2h3--0--2-----|
G|--2------------------------------2----2-------------------2--|
D|-------------------------------------------------------------|
A|-------------------------------------------------------------|
E|-------------------------------------------------------------|

E|--------------------------------------------------2--0----------|
B|--------0--1h2--2--2--0--2-------------0--2--2h3--------3--1h2--|
G|-----2----------------------2--2----2---------------------------|
D|--2-------------------------------------------------------------|
A|----------------------------------------------------------------|
E|----------------------------------------------------------------|

A
The other night dear as I lay sleeping, 
            D              A
I dreamed I held you in my arms, 
        D                  A
When I awoke dear I was mistaken 
              E          A
And I hung my head and I cried, 
 
REFRAIN:
A
You are my sunshine, my only sunshine, 
            D                    A
You make me happy when skies are gray, 
             D                     A
You'll never know dear, how much I love you, 
                     E        A
Please don't take my sunshine away, 
 
*REJOUER INTRO*

A
I'll always love you and make you happy, 
            D            A
If you will only say the same, 
           D                  A
But if you leave me to love another, 
                   E        A
You will regret it all some day, 
 
REFRAIN:
A
You are my sunshine, my only sunshine, 
            D                    A
You make me happy when skies are gray, 
             D                     A
You'll never know dear, how much I love you, 
                     E        A
Please don't take my sunshine away, 

*REJOUER INTRO*
 
A
You told me once dear, you really loved me, 
           D                 A
and no one else could come between, 
               D                  A
but now you've left me and love another, 
                   E      A
you have shattered all my dreams, 
 
REFRAIN:
A
You are my sunshine, my only sunshine, 
            D                    A
You make me happy when skies are gray, 
             D                     A
You'll never know dear, how much I love you, 
                     E        A
Please don't take my sunshine away, 


Imprimer la tab Imprimer la tab

Commentez la partition de You are my sunshine