Cours de guitare Cours de guitare | Nouveautés | Top 100 | Tous les accords | Blog
# a b c d e f g h i j k l m n o p q r s t u v w x y z demander une tab

You know i'm no good tab


Tablature de la chanson « You know i’m no good » de Amy Winehouse.

Dm                          Gm
 Meet you downstairs in the bar, and heard,
     A7                         Dm
Your rolled up sleeves and your skull t-shirt.
        Dm                     Gm
You say why did you do it with him today?
    A7                      Dm
And sniff me out like I was Tanqueray.

Pont 1:

Gm
 'Cos you're my fella, my guy;
E7
 Hand me your Stella and fly.
F
 By the time I'm out the door,
    E7                A7
You tear me down like Roger Moore.

Refrain 1:

Dm                Am      E7     Am
 I cheated myself, like I knew I would.
  Dm             Am           E7               Am
I told ya, I was trouble; you know that I'm no good.

Break:

e|-----------------|
B|-----------------|
G|-----------------|
D|-----------------|
A|--0--2-3-2-------|
E|------------5-0--|

Couplet 2:

Dm                    Gm
 Upstairs in bed with my ex boy;
A7                        Dm
 He's in the place, but I can't get joy.
Dm                      Gm
 Thinking of you in the final throws;
A7               Dm
 This is when my buzzer goes.

Pont 2:

Gm
 Run out to meet your chips and bitter,
E7
 You say when we're married, 'cos you're not bitter.
F
 There'll be none of him no more;
  E7                   A7
I cried for you on the kitchen floor.

Refrain 2:

Dm                Am      E7     Am
 I cheated myself, like I knew I would.
  Dm             Am           E7               Am
I told ya, I was trouble; you know that I'm no good.

e|-----------------|
B|-----------------|
G|-----------------|
D|-----------------|
A|--0--2-3-2-------|
E|------------5--0-|

Dm  Am  E7  Am (x2)

e|----------------|--------------|--------------|
B|----------------|-----------5--|--5-----------|
G|--7--7b9--5-----|-----5--------|-----7--5-----|
D|-------------7--|--7-----7-----|-----------7--|
A|----------------|--------------|--------------|
E|----------------|--------------|--------------|

e|-----------|----------------|--------------|--------------|
B|-----------|----------------|-----------5--|--5-----------|
G|-----5-----|--7--7b9--5-----|-----5--------|-----7--5-----|
D|--7-----7--|-------------7--|--7-----7-----|-----------7--|
A|-----------|----------------|--------------|--------------|
E|-----------|----------------|--------------|--------------|

e|---------------|
B|---------------|
G|-----5------7--|
D|--7-----7------|
A|---------------|
E|---------------|

Couplet 3:

Dm                 Gm
 Sweet reunion, Ja-maica and Spain;
A7                 Dm
 We're like how we were again.
Dm                   Gm
 I'm in the tub; you on the seat,
A7                    Dm
 Lick your lips, as I soak my feet.

Pont 3:

Gm
 Then you notice lickle carpet burn;
E7
 My stomach drops yeah and my guts churn.
F
 You shrug, and it's the worst,
   E7              A7
To truly stuck the knife in first.

Refrain 3:

Dm                Am      E7     Am
 I cheated myself, like I knew I would.
  Dm             Am           E7               Am
I told ya, I was trouble; you know that I'm no good.

Refrain 2:

Dm                Am      E7     Am
 I cheated myself, like I knew I would.
  Dm             Am           E7               Am
I told ya, I was trouble; you know that I'm no good.

Outro:

Dm  Am  E7  Am

e|----------------|--------------|--------------|
B|----------------|-----------5--|--5-----------|
G|--7--7b9--5-----|-----5--------|-----7--5-----|
D|-------------7--|--7-----7-----|-----------7--|
A|----------------|--------------|--------------|
E|----------------|--------------|--------------|

e|-----------|----------------|--------------|--------------|
B|-----------|----------------|-----------5--|--5-----------|
G|-----5-----|--7--7b9--5-----|-----5--------|-----7--5-----|
D|--7-----7--|-------------7--|--7-----7-----|-----------7--|
A|-----------|----------------|--------------|--------------|
E|-----------|----------------|--------------|--------------|


Imprimer la tab Imprimer la tab

Commentez la partition de You know i'm no good