Cours de guitare Cours de guitare | Nouveautés | Top 100 | Tous les accords | Blog
# a b c d e f g h i j k l m n o p q r s t u v w x y z demander une tab

Zoé tab


Tablature guitare de la chanson « Zoé » de Luke.

INTRO:

  Em                C                    Em                C                  
--------------------------------------|--------------------------------------|
--------------------------------------|--------------------------------------|
-----0--0-----0--0-----0--0-----0-----|-----0--0-----0--0-----0--0-----0-----|
-----2--2-----2--2-----2--2-----2-----|-----2--2-----2--2-----2--2-----2-----|
--------------------3--------2--------|--------------------3--------2--------|
--0--------0-----------------------3--|--0--------0-----------------------3--|

  Em                C                    Em                                   
--------------------------------------|--------------------------------------|
--------------------------------------|--------------------------------------|
-----0--0-----0--0-----0--0-----0-----|-----0--0-----0--0-----0--0-----0--0--|
-----2--2-----2--2-----2--2-----2-----|-----2--2-----2--2-----2--2-----2--2--|
--------------------3--------2--------|--------------------------------------|
--0--------0-----------------------3--|--0--------0--------0--------0--------|


Em                        C      G  
Ne te blesse que d'air pur 
        B          Em  
couvre toi d'étincelles 
  Am  
Zoé 
                           Em           G  
Trace donc le trait qui rassure 		    Shéma B
       F#             B  (voir shéma)		------------------------------------------------
Et que ta ligne soit belle 			------4--4-------4--4-------4--4-------4--4-----
						------4--4-------4--4-------4--4-------4--4-----
REFRAIN:					------4--4-------4--4-------4--4-------4--4-----
    C 						--2-----------0---------------------------------
Zoé, 						--------------------------3-----------2---------
     G  
Tes amours 
D             Em  
Sont des légendes 
C              G  
que désaprouve 
      B  
ton ange 
ton ange 

Em                        C      G  
N'étreins donc en morsures  
          B                Em      Am  
pour les seigneurs de la guerre 
                          Em      G  
fais donc suinter leur armure 
           F#          B  (voir shéma)
qu'ils y voient l'univers 

REFRAIN:
    C
Zoé,
     G  
Tes amours 
D              Em  
Sont des légendes 
C              G  
que désaprouve 
      B  
ton ange 
ton ange 

C        G  
   Tes amours 
D              Em  
 Sont des légendes 
C              G  
que désaprouve 
      B    (voir shéma)
ton ange 
	  Em
ton ange 


Imprimer la tab Imprimer la tab

Commentez la partition de Zoé